Thaha chaina The Edge Band Lyrics



Thaha chaina,
kasori bachu aaja
sadhai tirai aashai aash ma
mero maan aatincha
hoohoh
bujna sakchu timro bhawanaharulai
tara daar aai rancha
katai bhulne ho ki malai
Thaha chaina,
kasori bachu aaja
sadhai tirai aashai aash ma
mero maan aatincha
hoohoh
bujna sakchu timro bhawanaharulai
tara daar aai rancha
katai bhulne ho ki malai
......................................
timro nasalu herai le
maan ma kata kata
chota pugdacha
dukha sukha ma pani
hami thiyeu ssath
bhulna ma chahanna
aja yo sansar ma hamiiii yeuta
naya paila sarau na
haata ma haath diii
sangai hidera

biteka paal haru
ajhai pani sangalchu
k timinai vanana
maya nai ho vaye
saath deu khusi chu
aja timro nai hasho ma
sara khusi haru timilai
aja sunpinchu yeahh
...........................

Prayas|The Edge Band Lyrics

Prayash ho mero prayas
timilai birsane
Prayash ho mero prayas
aatit lai bhulaune
nosocha
nasamaye
dubisake alji sake
nathana timi bina
marisake,jalisake
yo aashu,yo nasha meroooooh.
...............................
alo nai cha
mero chati ko ghau
jahu timro sansar khusile sajau
mero yo behosi
mero yo pagalpan
prayas ho yo matrai meroooooohhh prayashhhhhhhhhh
.............................................
Prayash ho mero prayas
timilai birsane
Prayash ho mero prayas
aatit lai bhulaune...

The Edge Band History

The Edge Band
The Edge Band Was formed in 1998 in Pokhara and had it debut in 2000.The video of the single Mero aashu frm the same single witnessed country that edge would be an emerging talent in Nepali music.No doubt the prediction is now come true.

The Band then got disturbed and they were separated but the vocalist continued singing and later in 2006 the band formed a new album and initiated again with their new album vibes.

The edge band is classic band with lots of potential. If they get good sponsor and media then they would be more what they are today.Some of their Famous hits such as jiwan mero,thaha chaina Yo dil mero gives the best example about the talent of THE EDGE band.They were awarded in some of their songs.The song dukha diyera bagged best lyrics award with its soulful lyrics and with their album release in 2006 they were nominated as Rock Vocal Performance in 9th tuborg annual awards.

Nachaheko haina Timilai Lyrics|The Edge Band

nachayeko haina Timilai



na cha he ko haina timihilai
cha han thea juni juni vari lai
na cha he ko haina timihilai
cha han thea juni juni vari lai
.........
garnu ta timro k wasta
Bujhenau timle mero Byatha
na cha he ko haina timihilai
cha han thea juni juniiiii vari lai haiiiii
.................

Meri Dilki rani Timilai Timilai(Corrected as said by Visitors)
Phul sari Sajayeko thiye
sara sansarvari ma maile
kewal timlai nai rojeko thiye
garnu ta timro k wasta
Bujhenau timle mero mero betha
nachayeko haina timilaiii
chahanthea junu junuiii vari lai haaaaiiii
.......................

Aakhavari aashu bokera ma
timrai yaad ma tadpi rahechu ma
jindagi yesai rahecha mero
jahile pani dhoka payirahane
garnu ta timro k waaastaaaa
Bujenau Timle mero betha
nachayeko haina timilaiii
chahanthea junu junuiii vari lai haaaaiiii
.........................

Random Posts from us





Lambu dai|American Singer and Khem Raj Gurung

This is a Lok geet Nepali By American singer singing Lok Geet with Famous Nepali Folk singer Khem Raj Gurung..Watch and Enjoy the song.

Wari Jamuna|Lok Geet Nepali|Khem Raj gurung

Watch the Famous Song by Khem Gurung.Wari Jamuna Pari Jamuna jamuna ko fedai ma manakamana.
This famous song is from Nepali movie Ganga Jamuna.
Khem Raj Gurung performs best in his Film..
Watch it

Rato Ra Chandra Surya Remix

Listen the Rato ra chandra Surya Remix and Please do comment your views on remixing the National song.

Sukheko Jeu|Prakash

Daktar Sab Vitamin ko jhol lekhdinu na.
Mero sathi ko sukheko jeu
Tin pati vat khancha 4 mana gheu
tei pani kina lagdaina yesko jeu
Daktar sab,,.....

Okhar bute Kaka|Prakash ojha

Enjoy the Comedian song of Prakash Ojha Okar bute Kaka Sashurali gaka
This is one of the most comdey Nepali song bu Prakash Ojha.
Enjoy the Song

Shiva Mandai Mandaina|Nepali Comedy Song

Comedian song Siva mandai mandaina from Urlabari Artist
Watch the song kasari manau shivalai Shiva mandai mandaina

Dhaka Topi Mailo|Lok Geet Nepali

It is a kind of funny song.It is Funny Nepali Lok geet.The song is by Kumar Neupane and Shobha Neupane.
Dhaka Topi mailo dhune baini ghara gai
ka ramailo cha ra khai
Mailo vaye dhuideula
Somji somji ruideula


Nepali Gai Jatra|Gaijatra

Nepali Gaijatra

Gai jatra is one of the adorable Festival of Nepal.This is the festival of Gai i.e cow.Jatra refers to festival so this word itself deflects its meaning.It is the festival of cows.This is a famous festival for Nepali specially Newari.The Festival is usually celebrated in the montha of Bhadra(August or September).The festival has its own value.

But here I am going to describe the other gai jatra.Gaijatra also describes a comedy.Gaijatra is specially a kind of show or something to make people laugh.This makes a kind of comedy show or something that makes people laugh.The topic deals with the current happenings in the country like political and other deals and caricaturist caricatures and make people laugh.

Usually gaijatra is done by Nepali Maha jodi Haribansa Acarya and Madan Krishna who are the comedy king of Nepal.You may see how comedy they are:

Yo Dil Mero|Edge Lyrics

Yo dil Mero
Timrai Lagi ho
Kina Yeslai Tukrai diyeu
Sisha ta haina yo
yo dil mero
kina yeslai tukrai diyeu
Maana nai ta ho mero
Timile nai bujineu
samjhana aai rahancha
Timi bina mero jiwan ma
aauna kina hunchau tadha

mero maan lai aba timi eklo banai na chada na
timi aau na mero jiwan ma
huhuhuhuhuhuhu
Resami resami tyo timro kesha ma
chumna ta maan thiyo timro tyo
gulabi ootha ma
Resami resami tyo timro kesha ma
chumna ta maan thiyo timro tyo
gulabi ootha ma
yeti nisturi kina bani dinchau
ayera aba angali deu na
ma jeunu nai ko k artha vo ra
yedi timle chahenau vane
aau tima basa na
feri yo mero mutu ma
aau tima basa na
feri yo mero mutu ma
gaye ti hamra din haru
timile nai chahinau vane
aaja timi bata dherai tadha vayo
hohoho hu hu hu huhu

This Lyrics is Written by me myself hearing the swong...so Please forgive for minor mistakes...
Have great time with this blog
Thankyou..

YAADA SACHI GUITAR CHORDS|NABIN K BHATTARAI

Yaad sanchi kati basu
Vocal: Nabin K Bhattarai

   G                   Am                 C
E|----------------------------------------------------------|
B|---------3--------------------5----------------1-------1--|
G|-----0-----0-2-0----------5-------5-7--------0-------0----|
D|---0---0----------------7---7---7----------2-------2------|
A|-----------------------------------------3-------3--------|
E|-3--------------------5-----------------------------------|
。。
。。
G            Am
Yaad saanchi kati basu
G             Am
Chayan sangai jhaski ranchu
     C            G
Aaja pheri runchu ma kina kina
C           Am             Em
Dukhyo muru charkyo chaati mero
     G
Yaadama timro yaadama
      C            G
Ha ha ha ha ha hahaha Ha hahaha
。。
。。
G         Am
Heru kati aankhai thakcha
G                    Am
Aankha chimle raatai parcha
         C          G
Raata bhari jaagchu ma kina kina

Yaad Nadeu Guitar Chords by Astha

Yaad nadeo

Provided by: Sulav khadka
Band : Aastha

D Bm
Yaad nadeo satha deo
G A
Pida hoina malai maya deo
D Bm
Asa chodi malai bishwas deo
G A
Rodan hiona malai Hasho deo
D A F#m D
Maya deo malai juni junilai
D A F#m G
Sath deo mero eklo yo jiwanlai

D Bm G A
Bihaniko surya kiran
D Bm G A
Timrai muskan liyera angalna aaudacha
D Bm D Bm G A
Timro nyano mayako sparsha liyera
D Bm G A
Ratako tyo jun pani
D Bm G A
Timrai muhar bhai malai herdai mukuraidincha
D Bm D Bm
Anjuli thapi baschu timro maya paone
G A
Bishwasma
D A F#m D
Maya deo malai juni junilai
D A F#m G
(Satha deo mero eklo yo jiwanlai) 2

Hallowed Be Thy Name Antim Grahan

Watch Antim Grahan Song Hallowed Be Thy Name and Enjoy.
Hope you will like this.

Antim Grahan|Forever Winter

Antim Grahan
This is Metal Song of Nepali Underground Band Antim Grahan.Enjoy the song and Please donot ask for the Lyrics as I cannot judge the song to write any lyrics.

To an Angel Chords|The Uglyz

To an angel

Band : The Uglyz
hey valentine day audaicha so sing this song for ur gal n make her happy
best of luck everyone

G/G/F#/Em/Cadd9/D/G
Chorus:
Sweet love like an angel
dont be so afraid
You know my heart is true

Sweet love like and angel
dont be so uncertain
Ill be faithfull to you

When the sun dont shine
and the moon hides at nitgh
ill be there to hold you


Em/D/C/D/G
you are the one,you are the one
whom i dont wana fool

Em/D/C/D/G
you bring the smile, you bring the joy
which i dont wanan loose

Repeat Chorus

Subhakamana bhari Chords|Tara Devi

Subhakamana Vari
Singer: Tara Devi

A Bm A C#m D
Subhakamana bhari hareka swaasha ma
C#m A Bm A
Timro dirghayu ko kaamana garna sakun ma
A Bm A C#m D
Subhakamana bhari harek pala ma
C#m A Bm A
Timro jeevan ma subaasha charna sakun ma

A E C#m D
Aankha ka dui ghada preet le bhareko
E C#m
Harek bundh le abhisek deos
E D C#m
Shradha bhakti biswaas maya le uneko
E Bm A Bm A
Hara sabda yo mangala mala aa banos
A Bm A C#m D
Subhakamana bhari harek usha ma
C#m A Bm A
Timra bihani haru rangaauna aa sakun ma

A E C#m D
Mutuko diyo ma sandhai bali rahane
E C#m
Akhanda batti patha darsak rahos
E D C#m
Saduwa ko siundo ma jhalki rahane
E Bm A Bm A
Sindoor jhain subha tyo jeevan nn rahos
A Bm A C#m D
Subhakamana bhari harek sandhyama
C#m A Bm A
Timra saanjha haru sajai dina sakun ma

Sayad Timro Batoma Chords|Raju Lama

Sayad timro baatoma
Singer: Raju Lama from Mongolian Heart

A F#m D A
Saayad timro baato ma, mero paila na hola
A F#m D A
Saayad timro aankha ma, sapana mero na hola
Bm A Bm A
Tara mero jeevan ma timi sandhai hune chhau
F#m A
Kale kahin rune chhau *2
A F#m
Saayad timro baato ma
Bm A Bm A
Kati din bite, kati raat haraye
F#m A
Tara timi aaye nau
A Bm A Bm
Kati din bite, kati raat haraye
F#m A
Tara timi aaye nau
A F#m D A
Aandhakar purna jeevan ma, jyoti mero na hola
A F#m D A
Uadash timro jeevan ma, muskan mero na hola
Bm A Bm A
Tara mero jeevan ma timi sandhai hune chhau
F#m A
Kale kahin rune chhau *2
A F#m
Saayad timro baato ma
Bm A Bm A
Kati sapana haru yahan dekhe maile,
F#m A
Tara timi aaye nau
A Bm A Bm
Kati sapana haru yahan dekhe maile,
F#m A
Tara timi aaye nau
A F#m A F#m
chhanchhal timro jivan ma, yovan mero na hola
A F#m A F#m
Sundar timro jivan ma, sundarta mero na hola
Bm A Bm A
Tara mero jeevan ma timi sandhai hune chhau
F#m A
Kale kahin rune chhau *2
A F#m A F#m
Saayad timro baato ma, mero paila na hola
A F#m A F#m
Saayad timro aankha ma, sapana mero na hola
Bm A Bm A
Tara mero jeevan ma timi sandhai hune chhau
F#m A
Kale kahin rune chhau *2
F#m A
Kale kahin rune chhau *3

Sayad Mero Preeta Chords|Sugam Pokharel

Sayad mero preeta
Singer: Sugam Pokharel


D Bm D Bm
Sayad mero preeta timro aakha ko vayecha neera
A D F#m G A D
Bhulideu*4 chahanna banna ma timro aakha ko kasingar
D Bm D Bm
Lagcha sambandha haamro ghau banecha hridyako timro
A D F#m G A
Bhulideu*4 chahanna kaadasari bijhna hridayama timro
D Am G A...D
Timro ho ho...
D Bm D Bm
Sayad mero preeta timro aakha ko vayecha neera
A D F#m G A D
Bhulideu*4 chahanna banna ma timro aakha ko kasingar
D
Ho ho ho...

Samjhana ma Na aau Chords|Sugam Pokharel

Samjhanama na aau
Singer: Sugam Pokhrel

Provided by: Sunil

G Em G D
samjhanama na aau timi kalpana ma na aau
G Em G D
kori bati afsara jhai sapana ma na aau
G Em G D
hunata ee aakhaharu timrai bato herchan
G Em G D
aaula haru kalam samai timrai git korchan

G Em G D
git bhari na aau timi aakha bhari na aau
G Em G D
aljhi rahane maya bani pritama na aau

G Em G D
gham bhari jun bhari timilai dekhe pani
G Em C D
jhukkyauna na aau timi fakauna na aau
G Em G D
birsidinu timi ma kahi katai na aau

Samalincha Kaile Maan Chords|Sugam Pokharel

Samhalincha kahile
Singer: Sugam pokhrel

A C#m Bm
Samhalincha kahile man
E A
kahile tesai atali dincha * 2
A D
SAchna khojchu ankhama sapana
Bm A
ansu le nai pakhali dincha

Samhilincha...... dincha

E A
k Soch chu ma jindagi ma
D A
sabai adhuro rahidincha
E A
bihani auncha asa bokera
D A
feri nirsash banai dincha

SAncha khojchu........ Dincha
SAmhalincha......... Dincha
k k chahanchu ma zindagi ma
sabai apuro bhai dincha
sanja auncha samjha boki
feri atma dubai jancha
SAncha khojchu........ Dincha
SAmhalincha......... Dincha*2

Sayad Timi nai Hau Guitar Chords|Nabin K Bhattarai

Saayed timi nai hau
。。
Vocal: Nabin K. Bhattarai
E|-------3-2-------------------------3-2-------------|
B|------------3p0------------------------3p0---------|
G|-2h4------------0h2-2h4-------2h4----------0h2-2h4-|
D|-----5--------------------2h4-----5----------------|
A|---------------------------------------------------|
E|---------------------------------------------------|
。。
G Em G
Saayed timinai hau mero dilko dhadkan
G Em G
Saayed timinai hau bhabisya ra bartaman
C D Am G C
Duniyako aankha lagla timro roopama a a a
C D Am G
Duniya le k k bhanla timro barema
F D G
Sahana ma ta sakdina yesto kura
F G
Aaideu baru eklo yo jeevan ma
。。
。。
G C(or Em) G
Godhuli saanjh ya mirmire bihan
G C(or Em) G
Aayi bhetne gara priye kam se kam
C G
Bitla juni hoos gara hai priyetam
。。
。。
G C G
Aashako muna timi geet ko sargam
C G
Deen raata bitne bho parkhera meelan

Padukone Dipika Bikini

Hi all This is a Bikini and Sexy Pictures collections of Deepeeka Padukon or Dipika Padekor which is many times misspelled.Her name is misspelled like Dipika Padukor Deepika Padekor and all but her Real Name is Dipika Padukon
Padukon Dipika Pictures in Bikini Deepika Padekon Sexy pictures
Padukon Dipika Bikini Pictures Dipika Padekone

Dipika Padukon Sexy Pictures Deepika Padukon Bikini Shots

Deepeeka Padukone Bikini Pictures Sexy Shots Deepika

You Might also Like


Karishma kapoor's

Free calls in India

Katrina Kaif's

Saanu Ma chords By Prem Lama

Saano ma
Sanu ma

pREM lAMA
C Am C Dm
Dherai din ra raat biti gaye timro samjhanama
C Am C Dm
Aaunchau ki bhani timi pharkera pheri yo hridaya ma
F Dm C
Timilai samjhi baato heri kuri rahanthe ma
Dm C
saano ma

C Dm C
Saanjha jaba parcha timilai samjhinchu
C Dm C
Sapani ma pani ma kina jhaskinchu

C Dm C
Aasha ajhai cha mero yo mana ma
C Dm C
Maya mero cha timro tyo manama

Saajha ma Pani Raata ma Pani|Nima Rumba Chords

Saanjhama pani raat ma pani
Vocal: Nima Rumba

F/Bb/Bb/F
Doo bab doobaba Doba
F Dm F
Saanjhama pani raata ma pani
Bb C F C
Samjhanchu timilai dina ma pani
F
dina ma pani
F Dm F
Khusi ma pani dukhi ma pani
Bb C F C
Yaad aauncha kina timro mayalu bani
F
mayalu bani
F
Nazarko chot le tyo laali ooth le
Bb F
Muskan ko mitho maya pathaai diyou
Bb C
Madhooro saanjh ma tyo dil ko maajhma
F Dm F
Main jastai timi paglandai thiyou
F
Joonai ta timro muhhar jhain laagcha
Bb F
Adhar ma kina trishna jhain jaagcha
Bb C
Thachaina malai ko ho ni timi
F Dm F
Chaati ko cheu ma preeta baljhai bhaagne

Priyatama Guitar Chords|Anil Singh

Priyatma
Singer : Anil Singh
Bm G A D
Samjhera timilai premki devi
Bm G
Pujnechu timilai
A G A
mero mann mandirma ha..ha...
D G A D
Priyatama...hoo..oo..hoo Pritama

Bm A D
Phoola samjhi mutu mero
Bm A D
timilai chadaula
G A D
Timrai dhyanma sada dubi
G A D
Premko deep jalaula
G A D
Hoo..oo..o.. ho.. priyatama

Bm A D
Jogi sari timro laagi
Bm A D
Sara sansar tagaula
G A D
Timrai naauko mala japdai
G A D
arpan sara jiwan garaula
G A D
Hoo..oo..o.. ho.. priyatama

This one is provided by Mr. Saujan. I dont know which one sounds correct. I don't have this song, so can not check. Please check yourself.

G Bm C D
samjhera timilai prem ki devi
G Bm C D C
pujne lai chu timilai mero mandir ma
G C D G
priyatama ho ho ho priyatama

Prem Patra Guitar Chords By Anil Sings

Prem patra
Singer: Anil singh



C Em Dm G
maya ko pahilo saugat swarup
C Em Dm G
hirdaya ko mero sano anurodh
C Am F G
korera maya ko diu sabda timilai
C Dm C
mero yo prem patra mero yo prem patra mero yo prem patra

Am
i dont know how
Dm G
i dont know where and where
C Am
i gave my heart
Dm G C
i fell in love with her

C Em
cha jigu nagulya chwangu du
Dm G
mikhaya pyat swa jiu chwangu du
Em
cha jigu nuga he kha
Dm G
nugaya dhadkane chwangu du

C Em Dm G C
kagaj hoina yo mutu po ho mero
C Em Dm G
timi bina jiuna dherai cha garho
C Am F G
sumpidaichu maya ko diu sabda timilai
C Dm C
mero yo prem patra mero yo prem patra mero yo prem patra

Preeti basyo guitar Tab|Nima Rumba

Preeti Basyo
Singer: Nima Rumba

Guitar I
e|------------------------------|
b|-3--3--3--3----10--10-10-10---|
g|-2--4--4--4----11--9--9--9----|
d|------------------------------|
a|------------------------------|
e|------------------------------|

guitar II x2
e|---------14--12---------------| e|---------14--12--12--12--12----|
b|-----12----------15--14--12---| b|-----12------------------------|
g|-/14--------------------------| g|-/14---------------------------|
d|------------------------------| d|-------------------------------|
a|------------------------------| a|-------------------------------|
e|------------------------------| e|-------------------------------|

Play all chords on power chord fomat
D A G Em F# G
1 Mayalu nasama jhumi rahechu
D A G Em F# G
2 harsale gita ma gaai rahe chhu
D A G Em F# G
3 timro muhara aakhama jhalkirahecha
D A G Em F#
4 timro maya mutu ma salki rahecha

Play during the end of each 1 & 3 line
Guitar II
e|------------------------------------|
b|------------------------------------|
g|------------------------------------|
d|-----4---2--------------------------|
a|------------5---4---2(2)--4(4)---5--|
e|------------------------------------|

Play during the end of each 2 & 4 line
Guitar II
e|---------3-3-3-3h5--5-5-5--5h7---|
b|---------------------------------|
g|---------------------------------|
d|---------------------------------|
a|---------------------------------|
e|---------------------------------|

Verse 1 and 2 goes the same
here is the chorus

D A G A
aaja timro mero preeta basyo prema bandhanama jeevan fasyo
D A G A
aaja timro mero preeta basyo prema bandhanama jeevan fasyo
E F# G A
bhaghana bhaki timi mageko thiye aaja sapana mero sakar bhayo
D A Bm G/A
ma gauchu ma jhumchu pagal jhai aaja timro nama karauchu
D A Bm G/A
sunideu mayalu timro nimti yo jyanai dincu
D A Bm G/A
ma gauchu ma jhumchu pagal jhai aaja timro nama karauchu
D A Bm G/A
sunideu mayalu timro nimti yo jyanai dincu

Here is the main solo, kind of hard to tab
x4
e|-14-14-14-14-15-14-17-14--------|
b|--------------------------------|
g|--------------------------------|
d|--------------------------------|
a|--------------------------------|
e|--------------------------------|

x4
e|-14-14-14-14-17-14-19-14--------|
b|--------------------------------|
g|--------------------------------|
d|--------------------------------|
a|--------------------------------|
e|--------------------------------|

This TAB part is provided by Mr. Diwas Rai
e-14-14-14-15-14-14-14-17
b-----------------------
g----------------------- x4
d-----------------------
a-----------------------
e-----------------------

e-14-14-14-15-14-14-14-17-14-14-14-19
b-----------------------------------
g----------------------------------- x4
d-----------------------------------
a-----------------------------------
e-----------------------------------

e-15-14-12-15-14-12-15-14-12-15-14-12
b-----------------------------------
g-----------------------------------
d----------------------------------- x4
a-----------------------------------
e-----------------------------------

e-17-15-14-17-15-14-17-15-14-17-15-14
b-----------------------------------
g-----------------------------------
d-----------------------------------x4
a-----------------------------------
e-----------------------------------

e-19-17-15-19-17-15-19-17-15-19-17-15
b-----------------------------------
g----------------------------------- x4
d-----------------------------------
a-----------------------------------
e-----------------------------------

e-14-15-14-12-------------------------
b------------15-14-15-12--------------
g-----------------------14-12-14-12---
d-----------------------------------12 bend
a-------------------------------------
e-------------------------------------

Pheri Tyo Din|Sugam Pokharel Chords

Feri tyo Din
Singer: Sugam Pokhrel
A F#m A
Pheri tyo din samjhana chahanna
A F#m
Tehi katha ma dohoryauna chahanna
D Bm
Maya yo aago ho polcha taha cha
Bm A
aaphailai jalauna chahanna
。。
。。
A F#m
Prem ma phasna chahanna
A F#m
Sambhanda ma gaasna chahanna
D Bm
Maya yo dhaar ho kaatcha taha cha
Bm A
Aaphailai retna ma chahanna

Pheri Pani Timro Tasbir Chords

Pheri Pani Timro Tasbir
Feri Pani Timro Tasbir
Aarj Keshav
Intro: ( Beat them hard )
C Am F G
E|------------------------------------------------------------------------|
B|1-1--0-1-3-1-0-1------1-0-1-3-1-0-1-----1-0-1-3-1-0-1-----3-3-3-3-3-----|
G|----------------------2-2-2-2-2-2-2-----2-2-2-2-2-2-2-----4-4-4-4-4-----|
D|2-2--2-2-2-2-2-2------2-2-2-2-2-2-2-----3-3-3-3-3-3-3-----5-5-5-5-5-----|
A|3-3--3-3-3-3-3-3--------------------------------------------------------|
E|------------------------------------------------------------------------|

C Am
Pheri pani timro tasbir aakhama chai dincha
F G
kina ho timro geet yo aadhar le gai rancha
F G
bhulna khojchu timlai
F G
birsana chahanchu atitlai

(C Am F G) (Some damn long and nasty lead but damn good.)

Bb C
Yaad booki timro sara
Bb C
Jadaichu derai taada
Bb C
Sumpi jeevan timilai sara
Bb C
timidekhi derai taada
Bb C
jana ma khojchu taada
Bb C
timi dekhi derai taada

BbsC CsBb ( s=slide )

C Am
pheri pani timro yaad le malai derai sataucha
F G
kina ho timro geet yo aadhar le gai rancha.
C Am
Pheri pani timro tasbir aakhama chai dincha
F G
kina ho timro geet yo aadhar le gai rancha

Parkhai ko Pida|Kamal Man Singh Chords

Parkhai ko peeda
Vocal: Kamal man singh
C
Parkhai ko peeda bhujinau ki kaso
Dm
Timi bhanana
C
Har raat har pal timrai samjhana ma
Dm
Kati tadapen ma
Dm Am
Mero maya jhuto hoina
Dm Am
teti sasto chaina
Dm
Timi suna
C
Nisturi maayale maryo hai
Am
Mero yo maya lai
C
Sunyata ko aba abaash huna thalyo
Dm
Yo kolahal ma
C
Maya le hoina saayed biswaas ghat le
Dm
katai huna sakcha
C
Jhuto rahecha timro kasam
Dm G C
Jhuto nai cha timro tyo maya
C
Jaaun aba ma kahan jaaun
Dm G C
Sara sansar andhyaro laagcha
Dm C
Timi herana yo man kati roye e

Pari Chords|Anil Singh

Pari
Singer: Anil Singh

E C#m A B
bhuuul garacha dayibala pani
E C#m A B
aakash ki pari lai dharti ma chodi
A B
lobi najar bata ma
E
bachau kasari
C#m B A
unilaieeei maaaaaaaa
E
bachau kasari
C#m
na ta para cha
A
udi jana lai
B
pari gauma
E
unko thau ma
C#m
kati nisturi
A
daiba pani
B
chadi gayou
E
papi sansar ma
C#m B A
uni laiiiiiiiiiiiee yoooooooo
E
papi sansar ma

Pahilo Maya Guitar chords

Pahilo Maya
Singer:Asif
Featured by The Unity

Em D
Yaad aaucha timro muhar
sadhai vari nai
Bm Em
Bhuli gayein mero yo
chokho mayalai
Bm D
Samjhanalay sataunda
timro rokna ma sakdina
Bm Em
Dui thopa aasu mero aakhako
D Em
Pahilo pahilo maya
mero pahilo maya
C G C G
Bhulna khojchu sunyataama
ekanata bastima
C G C
Bichodko pidaama jaldai
Em
milanko aasma

(Play same chord....)
Bhulidiye sansaar mailay
timromayama
sathi bhai ista mitra
behosima
amar amar hunay maya
sadhai gaasna
Pahilo pahilo maya mero maya
REPEAT

Jaso Gara J vana|1974 AD guitar tabs

Nepali
Singer: 1974 AD

E|---------------------|---------------------------|-----------------------|
B|---------------------|---------------------------|-----------------------|
G|---------------------|---------------------------|-----------------------|
D|--10--------9--------|--7--------7----9----10----|-----------------------|
A|---------------------|-----------x---------------|--8~-------------7h8h7-|
E|---------------------|-----------x---------------|-----------------------|

--------------------|--------------------|------------------------------|
--------------------|--------------------|------------------------------|
--------------------|--------------------|------------------------------|
--------------------|--9~-------7~-------|--5~---------x----------------|
--------------------|--------------------|-----------x~--5~---7~---8~---|
--10~---------------|--------------------|---------x~-------------------|

-------------------|------------------|---------------------|
-------------------|------------------|---------------------|
-------------------|------------------|---------------------|
-------------------|------------------|--10~-------9~-------|
--7~---------------|------------------|--x~--------x~-------|
-------------------|------------------|--x~--------x~-------|

---------------------------|-----------------------|--------------------|
---------------------------|-----------------------|--------------------|
---------------------------|-----------------------|--------------------|
--7~-------7----9----10----|-----------------------|--------------------|
--x~-------x---------------|--8~-------------7h8h7-|--------------------|
--x~-------x---------------|-----------------------|--10~---------------|

--------------------|--------------------------------|-------------------|
--------------------|--------------------------------|-------------------|
--------------------|--------------------------------|-------------------|
--9~-------7~-------|--5~-----------x----------------|-------------------|
--x~-------x~-------|--x~---------x~--5~---7~---8~---|--7~---------------|
--x~-------x~-------|--x~-------x~-------------------|-------------------|

C Em Am Dm F
JAASO GARA JE BHANA JATA SUKAI LAI JOU MALAI
G F C
YO MAAN TA MERO NEPALI HO
E Am
MALAI GARV CHA HAMRO PHURKA LE
F G C
KATHI BETHA HARU SAHERA
G F C
ITHAS MA KATHA TA LEKHE KO CHA

C Em Am F
NA NAI LADAI KO MAIDAN BAATA BHAAGI DINCHA
G F C
NA TA SUNKO TARAJU MA BIKI DINCHA
E
AAPHNAI KARMA MA ATAL RAHANE
Am
AAPHNAI PASINA MA BISWAS RAAKHNE
G C
YO MAN TA MERO NEPALI HO

Additional Lyrics
NA NAI ARU KO BHAROSAMA BAANCHI DINCHA
NA TA AAPHNO ADHIKAARLAI LUTNA DINCHA
HIMAL JHAIN CHAMKILO SAFA CHA CHAATI
AAKASH JHAIN PHIJIYEKO BISHAL CHA BICHAAR
YO MAN TA MERO NEPALI HO

Navana Mero|Adrian Pradhan Chords

Navana mero maya
Singer: Adrian Pradhan

Provided by: Sagar Thapa

Em D
Navana mero maya lagcha vani
Em D
Na bolau vetna sunsaanma
B7 Em
Mayako kura ani vetgaat bekaar ho
C Am B7 Em
Jaani jaani hridyama chot nimtyaunu ho
D Em D Em
Maya tyo janjir ho jaha hridaya kaid huncha
G D Em Am D B7 Em
Haasi khusi zindagi*2 chinta chintale varidincha
C Am D Em B7 Em D Em
Barkhayaamko mitho nidra tesaitesai bhagayedincha
Em
Navana mero...

(Play same as above)
Navulayera vuline hi na pansayera pansine ho
Kaalo chaya lagejasto*2 bela belama tarsaedincha
Dekhnai nasakne sahanai nasakne ghaule mutu varidincha
Navana mero maya...

Namuna|Sabai Rai Chords

Namuna
Singer: Sabin Rai

Provided by: Saujan Pradhan
Revised by: Mr. Kiran K Subba

INTRO: C G F C G C
C Em F G
sundar ta ko timi udaharan hau
C Em F G
pariko timi auta namuna hau
Am G
sankai chaina timro rup ma
C G F C
iswor ko timi malai upahar hau
C Em F G
bara bari timro aune ko cha ra
C Em F G
pari pani mat khancha k bhara
Am G
hos gara yo duniya ma
C G F C C
jaha sundar ta ko aayu choto huncha

Dm Bb
(jaha jancahu timlai safalta
C Em Am
le chumi rahos sadhai
F
timro bhawana ma
G
sadhai uchha
C G F F C
bichar khili rahos khi li rahos

Musu Musu Hasi|Guitar Chords

Musu Musu Haashi

Intro://A/F#m/D/A/%/F#m//
A F#m A
musu musu hashi yo manlai aba naluta
A F#m A
akhako bato gari mutu bhitra aba napasha
D E
maat lagne timro muhar birsisakechhu
D E
timro naau mutu bata metisakechhu
A
musu musu haashi
//E/F#m/EF#m/DE/DE/DA/DA//:A/F#m
A://
A F#m A
betha mero timile kahilai bujhinau
A F#m A
chahethe sadai bhari chahana bujhinau
D E
sapanima aayi aba sataune nagara
D E
bujhisakeko aagolai jalaune nagara
A
musu musu haashi
//:A/F#mA://:A/F#mA://D/E/D/E/A/
F#m//
A F#m A
ashaharu marisake nirasha baki chha
A F#m A
yo manma jatatatai aba ghrida baki chha
D E
mero hidne bato baljhaune nagara
D E
eklai jiuna sikisake risaune nagara
A
musu musu haashi


Mero Euta Sathi cha Chords Sugam Pokharel

Mero auta saathi cha

Provided by: Sagar Thapa
Singer : Sugam Pokhrel
A F#m
Kohi ta cha jalai ma
E
aafno bhanna sakchu
A F#m
Hridaya ka sabai kura
E
Khulera bhanna sakchu
F#m D E F#m
Mero dukha ma roidinay
D E
mero khusima haasidinay
D E
sabai bhanada maathi cha
A D E
mero euta saathi cha
A F#m
Kohi ta cha jasma ma
E
bhara parna sakchu
A F#m
Aakha chimli uslai
E
biswas garna sakchu
F#m D E F#m
Mero galtilai sachyaaidenay
E D E
mero jeetma ramai denay
D E
sabai bhanada maathi cha
A D E
mero euta saathi cha
F#m E
Aaja uskai yaadma
F#m E
ma yo geet gaudai chu
F#m Bm
Mera sabdha haruma
D E
uskai tyo gunnalai ma sunau dai chu
F#m D E F#m
Mero dukhama roidinay
E D
mero khusi ma haasidinay
F#m D E F#m
Mero galtilai sachyaaidenay
E D E
mero jeetma ramai denay
F#m E
sabai bhanada maathi cha
B E F# B E
mero euta saathi cha
F# B E A
mero euta saathi cha
A D E A D
mero euta saathi cha

Possibly Interesting posts for you






Maya Malai|Dipesh Kishor Bhattarai Chords

Maya Malai

By: Deepesh K Bbhattarai

Submitted by: Kushal Gautam

E A
Maya malai garaya nagara ,Ma timilai maya garchu

E A
Maya malai garaya nagara ,Ma timilai maya garchu
B A E A
Malai taha cha you pagal pan ho,taipani ma ,timilai maya garchu
E A
Maya malai garaya nagara ,Ma timilai maya garchu
E A
Maya malai garaya nagara ,Ma timilai maya garchu
B A E A
Malai taha cha you pagal pan ho,taipani ma ,timilai maya garchu
B A
Kati hola ,timi lai herne
B A
kati hola, timil lai rojne
B A
Kati hola ,timi lai herne
B A
kati hola, timil lai rojne
E A
jaha jau chaina timile bhetne ,majati ko maya garne.

Maya ko Bato Chords Sugam Pokharel

Maya ko baato
Singer: Sugam Pokhrel
A F#m A Bm
Mayako baato hindeko bela
A F#m A Bm
Phoolko baato timilai chodi
D E
Kaandako baato hindethe
D E A
Taipani timro man raakhan sakina

A F#m A F#m
Komal timra haat samai Ladeko bela uthaethen
A F#m A F#m
Kaanda le chumda paau haru sahara bani doryaethen
D E A
Taipani timro man raakhna sakina


Baato cha laamo jindagiko
F#m
Aaja ma eklai hindi rahechu
A
Komal timra haat samai
F#m
kasaile timilai doryarahos
A Bm
Baato bharika kaanda jhikera
D E A
Kasaile phool jhari rahos

Maya The Uglyz guitar Chords

Maya
Singer: The Uglyz

Provided by: Suman Maharjan

Guitar 1 should be played to the given lyrics below:
E|----------------------------------------------------------------|
B|----5--5---5--5----5--5----4h5p4--0-4-5-------------------------|
G|----4--4---4--4----4--4-----------------------------------------|
D|----------------------------------------------------------------|
A|--7-------7------7-------7--------------------------------------|
E|----------------------------------------------------------------|


E B
Maya jokhera jokhna sakinna
E B
Kasari bhanu katti maya garchu
E B
Rujha dubi timi mero mayama
E B E
Jati dubyo uthi dherai maya

Guitar 2 should be played to the given lyrics below: (including Guitar 1 playing the given above tab)
E|----2------2-----2-------------------------------------------|
B|--5---5--5---5-5---5---4h5p---0--4--5------------------------|
G|-------------------------------------------------------------|
D|-------------------------------------------------------------|
A|-------------------------------------------------------------|
E|-------------------------------------------------------------|

Chorus:
E B
Maya basayera basinna
E A B
Maya nikalera nikalinna
E B
Birsana kojchu timilai jati ma
E A E
Yaad timro aauncha jati

Guitar 1 or Guitar 2 (This should be played after the given lyrics just above.)
E|------------------------------------------------------------------------|
B|-------------------------7s10--9--7--9----------------------4h5-7-5-4-5-|
G|------------------------------------------------------------------------|
D|-9-9-9-9-9-9-9-9-9-9-9-9---------------9-9-9-9-9-9-9-9-9-9-9------------|
A|-7-7-7-7-7-7-7-7-7-7-7-7---------------7-7-7-7-7-7-7-7-7-7-7------------|
E|------------------------------------------------------------------------|

Guitar 1 (+ Guitar 2 should be played at the same time to the given lyrics below:)
E|----------------------------------------------------------------|
B|----5--5---5--5----5--5----4h5p4--0-4-5-------------------------|
G|----4--4---4--4----4--4-----------------------------------------|
D|----------------------------------------------------------------|
A|--7-------7------7-------7--------------------------------------|
E|----------------------------------------------------------------|

Guitar 2
E|----2------2-----2-------------------------------------------|
B|--5---5--5---5-5---5---4h5p---0--4--5------------------------|
G|-------------------------------------------------------------|
D|-------------------------------------------------------------|
A|-------------------------------------------------------------|
E|-------------------------------------------------------------|

E B
Sadhain samjinchu timilai sapanima
E B
Koji hidne garchu bipanima
E B
Haina dui dinko maya yo
E B
Maya ho juni juni ko

MIDDLE LEAD (I am practising about it. Soon it will be in this site.)

E B
Samjhau kasari ma aaphulai roku kasari paila haru
A B E A B E
Cheku kasari ma aankhalai bujhaaun kasari yo mero man lai
chorus:

Timro Maan Ko dailo Chord

Man ko dailo
Sugam Pokharel
Am G
Timro Maan Ko Dailo Kholi Rakha Hai
Am/G/Am/Am
Ma Aaunalai....-2

Am G
Timi Diyo Bali Basa Hai
Am/G/Am/Am
Preeti Launalai....-4

G Am
Yaad Aune cha tyo din
G Am
Yaad aaune cha samaya
G Am
kunai din hami
G Am
tadeeyou bhane
F G F G
samjhi tyo cheedlai bahana bannecha
Am/G/Am/Am/Am
maan bujhaunalai ...-4

Am G
timi ful bani fuli rakha hai
Am/G/Am/Am/Am
basna charnalai....-2

Am G
timi jun banee hasi rakha hai
Am/G/Am/Am/Am
khusi charnalai.....-4

Malai Nasodha Narayan Gopal Guitar Tabs and Chords

Malai Nasodha Kahan Dukcha
E|------------------------|
B|---------1--------------|
G|-----0-2---2-0-----0----|
D|-3-3-----------3-3---0-3|
A|------------------------|
E|------------------------|

F D7 Gm C7 Eb C7 F
Malaaaai nasodha kahan dukcha ghau
Bb A7 Dm F
Ma j chu thikai chu bitholna naau


E|------------------------------------------------------------------|
B|-------1-3-1---1--------1-3-1---1--------1-3-1---1----------------|
G|-2-2-2-------2---2-2--2-------2---2-1--1-------1---1-1----1-------|
D|------------------------------------------------------------3-0-3-|
A|------------------------------------------------------------------|
E|------------------------------------------------------------------|


F Am Dm Ab F
Merooo Jindagima sadhain yo udasi
F Am Dm Db C7 F
Sakeeeekai chu jiuna kahileeee nahasi
F Gm F
Mero Chahana ho timiiii hanse pugcha
F C7 F
Mero ghau timi nahanse po dukcha
Eb Gm C7 F
Tesai le ma bhanchu timi muskurau


F Am Dm Ab F
Kataaai Behosima karayen bhane ma
F Am Dm Db C7 F
Kataaai Biranima harayen bhane ma
F Gm F
Mero Prapti timi yeti thane pugcha
F C7 F
Mero ghau timi nahanse po dukcha
Eb C7 F
Andhyaromai jiuna thiyo Najalau

Ma yesto geet gaaunchu Joheb Manandar Guitar chords

Ma yesto geet gaaunchu
Joheb Manandar

E|--------------------------------------------------------|
B|--------------------------------------------------------|
G|---4-6-6---4-6-6---4-------1-2-4-4-1-2-4-4-2-4-2-1-2----|
D|-7-------7-------7---7-6-4------------------------------|
A|--------------------------------------------------------|
E|--------------------------------------------------------|

A Bm A
Ma yesto geet gaaunchu timro chahana ma
A Bm A
Ma naya umanga chaunchu timro chahana ma
D Bm D
Timilai parkhi baschu Nayanharu bichaunchu
E A
Timro chahana ma

(Same as above)
Ma aaphailai bhulchu timro chahana na
Ma khusi haru sangalchu timto chahana ma
Timilai sochi baschu timro yaadma haraunchu
Timto chahanama

A
Joonlai sodhi hera kati raat jaagi basen
A
Timrai naam liyera kati chitthi kori basen
D Bm D E A
Timro ek muskan haraunchu ma kahan ha ha ha ha ha

Ma sansar Jitne Sabin Rai Guitar Chords

Ma sansar jitne aant
intro:
Repeat this 4 times!!!
E||--7------------------------------------------------|
B||-------7----5----------------5----7----7/9----5----|
G||-----------------4h6-------------------------------|
D||---------------------------------------------------|
A||---------------------------------------------------|
E||---------------------------------------------------|

here comes the solo:

E||-------------------------------------------------------------|
B||-------------------------------------------------------------|
G||-------------------------------------------------------------|
D||----------------------------------------9--------------------|
A||---------7-------7----9----9/11--------------11----9----7----|
E||--7--9------9------------------------------------------------|

----------------------------------------------------------|
----------------------------------------------------------|
----------------------------------------------------------|
--------------6h7h9----9/11----9h11h9------7----9----9----|
-------7~-------------------------------------------------|
--9-------------------------------------------------------|

---------------------------------------------------------------------|
---------------------------------------------------------------12----|
----------9-----------------11----------------------9----11b---------|
--9/11---------11------9----------9----9------11---------------------|
---------------------------------------------------------------------|
---------------------------------------------------------------------|

--------------------------------------------------------------------|
--------------------------12----------------------9----9h10h---9----|
--11r---9----11----9------------9----9----11------------------------|
--------------------------------------------------------------------|
--------------------------------------------------------------------|
--------------------------------------------------------------------|

----------------------------------------------------------------------|
------------------------------------------------------------9----9h---|
--11----9-------------------------9------------9----11----------------|
-------------7----9------9/11---------11------------------------------|
----------------------------------------------------------------------|
----------------------------------------------------------------------|

------------------------------------------------------|
--10h---9-----------------12--------------------------|
-------------11----9----------------------------------|
------------------------------------------------------|
--------------------------------------------7----9----|
----------------------------------7----9--------------|

-----------------------------------------------------------------------|
-------------------------------------9----9h-----10h---9---------------|
--------------------------9----11---------------------------11----9----|
-------------9----11---------------------------------------------------|
--9/---11--------------------------------------------------------------|
-----------------------------------------------------------------------|

------------------------------------------12------------------------||
-------------------------9----11----12b-----------12b---10h---12----||
--7/---9----9----11-------------------------------------------------||
--------------------------------------------------------------------||
--------------------------------------------------------------------||
--------------------------------------------------------------------||

E C#m
ma sansaar jitne aat gardai chhu
A B E
matra timi mero saath basideu
E C#m
bhabishya le gaaune geet ma rachdai chhu
A B E
matra timi sur ma taal milai deu

B A E
yehi ho aartha rachnu ko
B A E
itihaas ma amar rahos
B A E
timro ra mero kahani
B
sadhai sadhai........
E C#m
jaba hidda hiddai thakchhu ma kahile kahi
A B E
tyeti bela mero aad bani deu

E C#m
jindagi ko modma sochna sakina bhane
A B E
timro mitho bichar malai deu
B A E
yehi ho aartha bhannu ko
B A E
sapana thulo chhaina
B A E
bilauna garna naparos
B
jindagima........
A{POWER CHORD} B
sunaulo haamro bhabishya
A B
sakar hunchha malai bharosa chha
F Dm
ma harpal timro rakchhya garne chhu
A# C F
matra timi aatmabal banideu
F Dm
bhabishya le gaaune geet ma rachdai chhu
A# C F
matra timi sur ma taal milai deu
C A# F
yehi ho aartha rachnu ko
C A# F
itihaas ma amar rahos
C A# F
timro ra mero kahani
C
sadhai sadhai.......
F Dm
ma sansaar jitne aat gardai chhu
A# C F
matra timi mero saath basideu

Ma maya Laudina Nabin K bhattarai Chords

Ma Maya Laudina

D Bm G
Birsana khojchu jhan yaad badcha maannma
Em D
Charae dincha purano ghau tanama
D Bm G
Kina khakro yo ghayal banae malai
Em D
Sakina maile bhujauna yo mannlai
A D A D
Aljai nadeu malai sambhalna ma paudina
Em D Em D
Ma maya laudina ma maya laudiana...

D Bm G
Chorera lagyau mero ti khusi jahile
Em D
Bina muskan jiye ko chu ma ahile
D Bm G
Ferido rahecha thahai napae nazarma
Em D
Nagara kara chumna lai yo adharma
A D A D
Bhulideu malai sapnama ma chaudina
Em D
Ma maya laudina...

A D Em D
Aljai nadeu malai ma maya laudiana
A D Em D
sambhalna ma paudina ma maya laudiana
A D Em D
Bhulideu malai ma maya laudiana
A D Em D
sapnama ma chaudina ma maya laudiana

ma Maya Garchu Anil Singh Chords

Ma maya garchu
Singer: Anil Singh

C
Ma maya garchu meri unilai
C
Ek baar haina juni junilai
F C
Uniali*4 unilai

C F C
Choreko haina dhateko hoina
C F C
Paisale mutu sateko hoina
F C F C
Daibale deko vagyale paako
G
Mann milera pirati laako
F C
Unilai*4 unilai

(Play same chords as above)
Baato chekeni chekinna maya
Ghati rete ni retina maya
Garnele garun chiyo ra charcho
Ma sochne chaina bikalpa arko
Unilai*4 unilai

Lukna Deu Malai|Axe Band Chords

Lukna deu malai

E|--3---3----3--3----3--3----3--3-----|

B|--3---3----3--3----3--3----3--3-----|

G|------------------------------------|

D|--------0h2-------------0h2---------|

A|-----2-------3-------2-------3------|

E|-3--------------0h3-----------------|

G Cadd9

Lukna deu malai timro kesama

G G

tyaha dherai shital chha

G Cadd9

Nidauna deu timro parelima

G G

tyaha dherai sapana chha

C G

Mutu bhitra raakha malai

C G

Jiune aadhaar deu malai

C G

Mutu bhitra raakha malai

C G D

Jiune aadhaar deu malai

E|------------------------------------------|

B|------------------------------------------|

G|--------------------0---------------------|

D|--------------2-20h2----------------------|

A|----23-32-32-------------23-32-32---------|

E|-3-3---------3--------3-3---------30-0123-|

F G

Jaba katai bhetchhu timilai

F G

ekohoro tolai rahanchhu ma

F G

Hatkelale muhar chopdai

F G

laaj maandai bhaagi dinchhau timi

C G

Muskaudai isarale

C G

Lajaudai bolau malai

C G

Mutu bhitra raakha malai

C G D

Jiune aadhaar deu malai

F G

Noulakhe tara majhma

F G

roje maile kebal junlai

F G

Mero mutu majhko dhukdhuki

F G

soche maile kebal timilai

C G

Dhadki deu aba timi

C G

Bachairakha timi malai

C G

Mutu bhitra raakha malai

C G D

Jiune aadhaar deu malai

Luki Luki Chords|Dhiraj Rai

luki luki
Dhiraj Rai
Intro: A / F#m / Bm / E / A

A
Luki Luki Aankha Timi
F#m
Najudau Teshari
Bm
Yo Man Teshai Udi Dinchha
E A
Karke Najar Le

A F#m Bm
Har Mausoom Ma Timi Bina
E A
Birano Lagchha Malai
F#m
Kasto Ashar Pari Diyou
Bm E A
Nithori Hashee Hashee Timile
C D
Mera Jeevan Ka Pahila Haru Ma
C D
Mera Echha Chahana Haru Ma
A
Timi Lai Nai Pahi Rahe Chhu

Maile Rachee Ka Ti Geet Haru Ma
Sangeet Le Chhaunu Timi
Nirash Yo Jeevan Ma Bahar Bani Aaunu Mayalu Timi
Mera Jeevan Ka Pahila Haru Ma
Mera Echha Chahana Haru Ma
Timi Lai Nai Pahi Rahe Chhu

Lalupate phulyo banaima Chords

Lalupate phulyo banaima
E|--------------------------------------------------------------------------------------|
B|--------------------------------------------------------------------------------------|
G|-14-16-14-------14-16-16b-16r-14h16-14-----------14-16p14-13h14-13--------------14----|
D|----------14h16------------------------16--14-16-------------------16-16s18-14-----14-|
A|--------------------------------------------------------------------------------------|
E|--------------------------------------------------------------------------------------|


A C#m
Lalupate Phulyo Banai Ma
A F#m
Timro Maya Bashyo Manai Ma
Bm
Kahile Gala Ko Lali Le
E A
Kahile Mitho Boli Le


E|------------------------------------------------------------------------------------------|
B|-14-14----14----------17-14---14-14-------------------------------------------------------|
G|-14-14-16----16-14-16----14---14-14-16-14----14-----16-16s18-16-14----14h16-16------------|
D|------------------------------------------16----16-----------------16----------18s16-14-16|
A|------------------------------------------------------------------------------------------|
E|------------------------------------------------------------------------------------------|

E|-----------------|
B|----------17-17--|
G|-----------------|
D|16-18--s18-------|
A|-----------------|
E|-----------------|

A C#m
Gajalu Aankha Ko Herai Le
A F#m
Rata Bhari Ko Ninda Udayo
Bm
Lajaune Timro Tyo Bani Le
E A
Hami Lai Behoshi Tulayo
E A
Hami Lai Behoshi Tulayo


E|--------------------------------------|
B|-------------------------------17-----|
G|--------14-16-16b-16r-14-16s18----18--|
D|-14h16--------------------------------|
A|--------------------------------------|
E|--------------------------------------|


A C#m
Chameli Ko Phula Tipe Ra
A F#m
Chultho Ma Lai Dehe Hai

Bm
Nadiya Pani Timile
E A
Maile Maya Chori Lihe Hai
E A
Maile Maya Chori Lihe Hai

Lajaalu muskanle preyasi Chords|Kalind Ban

Lajaalu muskanle preyasi
E|------------------------------------------------------------5-3-2---2---5-3-2---2--|

B|-3-5-5-5s7-7s5-3-5-5-5s7----3-5-5-5s7-7s5-3-5p3-5-3---------------5-----------5----|

G|----------------------------------------------------[Piano]------------------------|

D|-----------------------------------------------------------------------------------|

A|-----------------------------------------------------------------------------------|

E|-----------------------------------------------------------------------------------|



E|-3-5-3-2-3--3-3-2p0-0-----------------Repeat Blue notes---------------5s7-5-----------|

B|----------------------3-3-5-5s7-3-5---------------------------3-5-5s7---------7-5-3---|

G|----------------------------------------------------------2-4-----------------------4-|

D|--------------------------------------------------------------------------------------|

A|--------------------------------------------------------------------------------------|

E|--------------------------------------------------------------------------------------|


E|-0-2-0-------------------------5s7-7-5-3s5-3-----------------------------------------|

B|-------3-2-4---------3-5-5s7-5---------------3-5-5-5s7-5-----------------------------|

G|---------------2-2-4----------------------------------------Repeat Green notes-3-5---|

D|-------------------------------------------------------------------------------------|

A|-------------------------------------------------------------------------------------|

E|-------------------------------------------------------------------------------------|




D G

Lajaalu muskaan le preyasi

A D

Chori lagyou man mero timile


D A

Mayaalu kehi ta bolana

G D

Chahanchu timilai bhana na

D

Gaajalu aankhale herana



E|-------------------14-12-------------------12-12-12br-12-10-12-10----------------------|

B|-12-14-14b-14br-12-------15-14-12----12-14------------------------12-14---12-12p10-----|

G|-----------------------------------------------------------------------------------12--|

D|---------------------------------------------------------------------------------------|

A|---------------------------------------------------------------------------------------|

E|---------------------------------------------------------------------------------------|



E|-------------14-12---------|

B|-14-14p12----------14-15---|

G|----------14---------------|

D|---------------------------|

A|---------------------------|

E|---------------------------|



D A

Dubera timro yaadama

G D

Rahanchu sadhaiani saatha ma

D

Aau na angaali herana